ISO-10303-21;
HEADER;
FILE_DESCRIPTION (( 'STEP AP203' ),
    '1' );
FILE_NAME ('Q-AZHWP-20-800-M.STEP',
    '2020-12-22T09:08:57',
    ( '' ),
    ( '' ),
    'SwSTEP 2.0',
    'SolidWorks 2020',
    '' );
FILE_SCHEMA (( 'CONFIG_CONTROL_DESIGN' ));
ENDSEC;

DATA;
#1 = DIRECTION ( 'NONE',  ( -1.000000000000000000, 0.000000000000000000, -0.000000000000000000 ) ) ;
#2 = CC_DESIGN_DATE_AND_TIME_ASSIGNMENT ( #4, #313, ( #120 ) ) ;
#3 = CARTESIAN_POINT ( 'NONE',  ( 3.000000000000000000, 1.555301434917138433E-15, -12.69999999999999929 ) ) ;
#4 = DATE_AND_TIME ( #126, #315 ) ;
#5 = VERTEX_POINT ( 'NONE', #194 ) ;
#6 = DIRECTION ( 'NONE',  ( -1.000000000000000000, -0.000000000000000000, -0.000000000000000000 ) ) ;
#7 = COORDINATED_UNIVERSAL_TIME_OFFSET ( 8, 0, .AHEAD. ) ;
#8 = EDGE_LOOP ( 'NONE', ( #318, #35 ) ) ;
#9 = PERSON_AND_ORGANIZATION ( #13, #184 ) ;
#10 = EDGE_LOOP ( 'NONE', ( #309, #61 ) ) ;
#11 = APPLICATION_PROTOCOL_DEFINITION ( 'international standard', 'config_control_design', 1994, #225 ) ;
#12 = DIRECTION ( 'NONE',  ( 0.000000000000000000, 0.000000000000000000, 1.000000000000000000 ) ) ;
#13 = PERSON ( 'UNSPECIFIED', 'UNSPECIFIED', 'UNSPECIFIED', ('UNSPECIFIED'), ('UNSPECIFIED'), ('UNSPECIFIED') ) ;
#14 = CARTESIAN_POINT ( 'NONE',  ( -3.000000000000000000, 1.555301434917138433E-15, -12.69999999999999929 ) ) ;
#15 = EDGE_CURVE ( 'NONE', #293, #78, #300, .T. ) ;
#16 = CARTESIAN_POINT ( 'NONE',  ( 2.999999999999999112, 1.224646799147353256E-15, -10.00000000000000000 ) ) ;
#17 = CIRCLE ( 'NONE', #216, 10.00000000000000000 ) ;
#18 = LOCAL_TIME ( 17, 8, 57.00000000000000000, #104 ) ;
#19 = APPROVAL ( #29, 'UNSPECIFIED' ) ;
#20 = CARTESIAN_POINT ( 'NONE',  ( -2.500000000000000444, 0.000000000000000000, 0.000000000000000000 ) ) ;
#21 = FACE_BOUND ( 'NONE', #10, .T. ) ;
#22 = APPROVAL_PERSON_ORGANIZATION ( #74, #19, #322 ) ;
#23 = DIRECTION ( 'NONE',  ( -1.000000000000000000, -0.000000000000000000, -0.000000000000000000 ) ) ;
#24 = LINE ( 'NONE', #280, #231 ) ;
#25 = EDGE_CURVE ( 'NONE', #187, #323, #200, .T. ) ;
#26 = CIRCLE ( 'NONE', #84, 10.00000000000000000 ) ;
#27 = SECURITY_CLASSIFICATION_LEVEL ( 'unclassified' ) ;
#28 = EDGE_LOOP ( 'NONE', ( #314, #32 ) ) ;
#29 = APPROVAL_STATUS ( 'not_yet_approved' ) ;
#30 = ORIENTED_EDGE ( 'NONE', *, *, #232, .F. ) ;
#31 = COORDINATED_UNIVERSAL_TIME_OFFSET ( 8, 0, .AHEAD. ) ;
#32 = ORIENTED_EDGE ( 'NONE', *, *, #260, .T. ) ;
#33 = CARTESIAN_POINT ( 'NONE',  ( 2.999999999999999112, 0.000000000000000000, 10.00000000000000000 ) ) ;
#34 = VERTEX_POINT ( 'NONE', #90 ) ;
#35 = ORIENTED_EDGE ( 'NONE', *, *, #114, .T. ) ;
#36 = EDGE_CURVE ( 'NONE', #5, #57, #228, .T. ) ;
#37 = CARTESIAN_POINT ( 'NONE',  ( -3.000000000000000000, 0.000000000000000000, 0.000000000000000000 ) ) ;
#38 = DIRECTION ( 'NONE',  ( 0.000000000000000000, 0.000000000000000000, 1.000000000000000000 ) ) ;
#39 = AXIS2_PLACEMENT_3D ( 'NONE', #199, #278, #206 ) ;
#40 = CARTESIAN_POINT ( 'NONE',  ( 2.500000000000000888, 0.000000000000000000, 10.00000000000000000 ) ) ;
#41 = ADVANCED_FACE ( 'NONE', ( #251 ), #43, .T. ) ;
#42 = DIRECTION ( 'NONE',  ( -1.000000000000000000, -0.000000000000000000, -0.000000000000000000 ) ) ;
#43 = CYLINDRICAL_SURFACE ( 'NONE', #252, 12.69999999999999929 ) ;
#44 = EDGE_CURVE ( 'NONE', #323, #34, #332, .T. ) ;
#45 = CYLINDRICAL_SURFACE ( 'NONE', #93, 10.00000000000000000 ) ;
#46 = CARTESIAN_POINT ( 'NONE',  ( -2.500000000000000444, 0.000000000000000000, 10.00000000000000000 ) ) ;
#47 = CARTESIAN_POINT ( 'NONE',  ( 2.500000000000000888, 0.000000000000000000, 0.000000000000000000 ) ) ;
#48 = CARTESIAN_POINT ( 'NONE',  ( -1.614212418857619014, 0.000000000000000000, 10.00000000000000000 ) ) ;
#49 = EDGE_LOOP ( 'NONE', ( #133, #54 ) ) ;
#50 = APPROVAL_STATUS ( 'not_yet_approved' ) ;
#51 = ORIENTED_EDGE ( 'NONE', *, *, #268, .F. ) ;
#52 = LOCAL_TIME ( 17, 8, 57.00000000000000000, #98 ) ;
#53 = PERSON_AND_ORGANIZATION_ROLE ( 'creator' ) ;
#54 = ORIENTED_EDGE ( 'NONE', *, *, #175, .F. ) ;
#55 = APPLICATION_PROTOCOL_DEFINITION ( 'international standard', 'config_control_design', 1994, #134 ) ;
#56 = PLANE ( 'NONE',  #235 ) ;
#57 = VERTEX_POINT ( 'NONE', #14 ) ;
#58 = EDGE_CURVE ( 'NONE', #293, #100, #17, .T. ) ;
#59 = AXIS2_PLACEMENT_3D ( 'NONE', #128, #102, #288 ) ;
#60 = CARTESIAN_POINT ( 'NONE',  ( -2.500000000000000444, 10.00000000000000000, 0.000000000000000000 ) ) ;
#61 = ORIENTED_EDGE ( 'NONE', *, *, #324, .F. ) ;
#62 = DIRECTION ( 'NONE',  ( -1.000000000000000000, -0.000000000000000000, -0.000000000000000000 ) ) ;
#63 = CYLINDRICAL_SURFACE ( 'NONE', #137, 10.00000000000000000 ) ;
#64 = AXIS2_PLACEMENT_3D ( 'NONE', #304, #205, #306 ) ;
#65 = CARTESIAN_POINT ( 'NONE',  ( 2.999999999999999112, 12.69999999999999929, 0.000000000000000000 ) ) ;
#66 = LOCAL_TIME ( 17, 8, 57.00000000000000000, #244 ) ;
#67 = FACE_OUTER_BOUND ( 'NONE', #154, .T. ) ;
#68 = DIRECTION ( 'NONE',  ( -1.000000000000000000, -0.000000000000000000, -0.000000000000000000 ) ) ;
#69 = CIRCLE ( 'NONE', #294, 12.69999999999999929 ) ;
#70 = EDGE_LOOP ( 'NONE', ( #253, #180, #160, #263 ) ) ;
#71 = PERSON_AND_ORGANIZATION ( #13, #184 ) ;
#72 = EDGE_LOOP ( 'NONE', ( #236, #130, #193, #157 ) ) ;
#73 = FACE_OUTER_BOUND ( 'NONE', #189, .T. ) ;
#74 = PERSON_AND_ORGANIZATION ( #13, #184 ) ;
#75 = EDGE_LOOP ( 'NONE', ( #30, #51 ) ) ;
#76 = AXIS2_PLACEMENT_3D ( 'NONE', #105, #178, #107 ) ;
#77 = APPROVAL_ROLE ( '' ) ;
#78 = VERTEX_POINT ( 'NONE', #40 ) ;
#79 = APPROVAL ( #50, 'UNSPECIFIED' ) ;
#80 = PERSON_AND_ORGANIZATION ( #13, #184 ) ;
#81 = ORIENTED_EDGE ( 'NONE', *, *, #302, .T. ) ;
#82 = DATE_AND_TIME ( #186, #66 ) ;
#83 = CC_DESIGN_APPROVAL ( #19, ( #120 ) ) ;
#84 = AXIS2_PLACEMENT_3D ( 'NONE', #116, #170, #233 ) ;
#85 = ADVANCED_FACE ( 'NONE', ( #295 ), #63, .F. ) ;
#86 = DESIGN_CONTEXT ( 'detailed design', #225, 'design' ) ;
#87 = CARTESIAN_POINT ( 'NONE',  ( 2.999999999999999112, 0.000000000000000000, 0.000000000000000000 ) ) ;
#88 = AXIS2_PLACEMENT_3D ( 'NONE', #219, #6, #181 ) ;
#89 = EDGE_CURVE ( 'NONE', #218, #127, #115, .T. ) ;
#90 = CARTESIAN_POINT ( 'NONE',  ( -3.000000000000000444, 1.224646799147353256E-15, -10.00000000000000000 ) ) ;
#91 = FACE_OUTER_BOUND ( 'NONE', #28, .T. ) ;
#92 = LINE ( 'NONE', #202, #176 ) ;
#93 = AXIS2_PLACEMENT_3D ( 'NONE', #146, #254, #152 ) ;
#94 = PLANE ( 'NONE',  #39 ) ;
#95 = PLANE ( 'NONE',  #151 ) ;
#96 = AXIS2_PLACEMENT_3D ( 'NONE', #20, #117, #230 ) ;
#97 = ORIENTED_EDGE ( 'NONE', *, *, #25, .T. ) ;
#98 = COORDINATED_UNIVERSAL_TIME_OFFSET ( 8, 0, .AHEAD. ) ;
#99 = DIRECTION ( 'NONE',  ( -1.000000000000000000, -0.000000000000000000, -0.000000000000000000 ) ) ;
#100 = VERTEX_POINT ( 'NONE', #16 ) ;
#101 = ADVANCED_FACE ( 'NONE', ( #165 ), #297, .F. ) ;
#102 = DIRECTION ( 'NONE',  ( 0.000000000000000000, 0.000000000000000000, 1.000000000000000000 ) ) ;
#103 = ADVANCED_FACE ( 'NONE', ( #272, #163 ), #270, .F. ) ;
#104 = COORDINATED_UNIVERSAL_TIME_OFFSET ( 8, 0, .AHEAD. ) ;
#105 = CARTESIAN_POINT ( 'NONE',  ( -1.614212418857619014, 0.000000000000000000, 0.000000000000000000 ) ) ;
#106 = EDGE_LOOP ( 'NONE', ( #327, #287 ) ) ;
#107 = DIRECTION ( 'NONE',  ( 0.000000000000000000, 0.000000000000000000, 1.000000000000000000 ) ) ;
#108 = PERSON_AND_ORGANIZATION ( #13, #184 ) ;
#109 = ORIENTED_EDGE ( 'NONE', *, *, #44, .F. ) ;
#110 = CARTESIAN_POINT ( 'NONE',  ( -1.614212418857619014, 0.000000000000000000, 10.00000000000000000 ) ) ;
#111 = CC_DESIGN_SECURITY_CLASSIFICATION ( #120, ( #190 ) ) ;
#112 = CIRCLE ( 'NONE', #325, 12.69999999999999929 ) ;
#113 = DIRECTION ( 'NONE',  ( 0.000000000000000000, 0.000000000000000000, 1.000000000000000000 ) ) ;
#114 = EDGE_CURVE ( 'NONE', #100, #293, #26, .T. ) ;
#115 = CIRCLE ( 'NONE', #195, 12.69999999999999929 ) ;
#116 = CARTESIAN_POINT ( 'NONE',  ( 2.999999999999999112, 0.000000000000000000, 0.000000000000000000 ) ) ;
#117 = DIRECTION ( 'NONE',  ( 1.000000000000000000, 0.000000000000000000, 0.000000000000000000 ) ) ;
#118 = CARTESIAN_POINT ( 'NONE',  ( 3.000000000000000000, 0.000000000000000000, 0.000000000000000000 ) ) ;
#119 = ADVANCED_FACE ( 'NONE', ( #21, #91 ), #94, .F. ) ;
#120 = SECURITY_CLASSIFICATION ( '', '', #27 ) ;
#121 = DIRECTION ( 'NONE',  ( -1.000000000000000000, -0.000000000000000000, -0.000000000000000000 ) ) ;
#122 = CARTESIAN_POINT ( 'NONE',  ( -3.000000000000000000, 0.000000000000000000, 0.000000000000000000 ) ) ;
#123 =( NAMED_UNIT ( * ) PLANE_ANGLE_UNIT ( ) SI_UNIT ( $, .RADIAN. ) );
#124 = AXIS2_PLACEMENT_3D ( 'NONE', #188, #291, #217 ) ;
#125 = LINE ( 'NONE', #185, #164 ) ;
#126 = CALENDAR_DATE ( 2020, 22, 12 ) ;
#127 = VERTEX_POINT ( 'NONE', #3 ) ;
#128 = CARTESIAN_POINT ( 'NONE',  ( 0.000000000000000000, 0.000000000000000000, 0.000000000000000000 ) ) ;
#129 = VERTEX_POINT ( 'NONE', #258 ) ;
#130 = ORIENTED_EDGE ( 'NONE', *, *, #237, .T. ) ;
#131 = CIRCLE ( 'NONE', #124, 10.00000000000000000 ) ;
#132 = PERSON_AND_ORGANIZATION ( #13, #184 ) ;
#133 = ORIENTED_EDGE ( 'NONE', *, *, #25, .F. ) ;
#134 = APPLICATION_CONTEXT ( 'configuration controlled 3d designs of mechanical parts and assemblies' ) ;
#135 = CARTESIAN_POINT ( 'NONE',  ( 3.000000000000000000, 0.000000000000000000, 0.000000000000000000 ) ) ;
#136 = VECTOR ( 'NONE', #167, 1000.000000000000000 ) ;
#137 = AXIS2_PLACEMENT_3D ( 'NONE', #269, #192, #12 ) ;
#138 = ADVANCED_FACE ( 'NONE', ( #301 ), #95, .F. ) ;
#139 = DIRECTION ( 'NONE',  ( 0.000000000000000000, 0.000000000000000000, -1.000000000000000000 ) ) ;
#140 = PRODUCT_DEFINITION ( 'UNKNOWN', '', #190, #86 ) ;
#141 = PERSON_AND_ORGANIZATION_ROLE ( 'design_owner' ) ;
#142 = MANIFOLD_SOLID_BREP ( 'Ðý×', #168 ) ;
#143 = DIRECTION ( 'NONE',  ( -1.000000000000000000, -0.000000000000000000, -0.000000000000000000 ) ) ;
#144 = CARTESIAN_POINT ( 'NONE',  ( -1.614212418857619014, 0.000000000000000000, 0.000000000000000000 ) ) ;
#145 = AXIS2_PLACEMENT_3D ( 'NONE', #224, #191, #139 ) ;
#146 = CARTESIAN_POINT ( 'NONE',  ( -1.614212418857619014, 0.000000000000000000, 0.000000000000000000 ) ) ;
#147 = ADVANCED_BREP_SHAPE_REPRESENTATION ( 'Q-AZHWP-20-800-M', ( #142, #59 ), #207 ) ;
#148 = ADVANCED_FACE ( 'NONE', ( #275 ), #45, .F. ) ;
#149 = DIRECTION ( 'NONE',  ( -1.000000000000000000, -0.000000000000000000, -0.000000000000000000 ) ) ;
#150 = DIRECTION ( 'NONE',  ( 0.000000000000000000, 0.000000000000000000, 1.000000000000000000 ) ) ;
#151 = AXIS2_PLACEMENT_3D ( 'NONE', #308, #1, #276 ) ;
#152 = DIRECTION ( 'NONE',  ( 0.000000000000000000, 0.000000000000000000, 1.000000000000000000 ) ) ;
#153 = PERSON_AND_ORGANIZATION_ROLE ( 'design_supplier' ) ;
#154 = EDGE_LOOP ( 'NONE', ( #316, #215, #241, #183 ) ) ;
#155 = APPROVAL_PERSON_ORGANIZATION ( #108, #198, #161 ) ;
#156 = SHAPE_DEFINITION_REPRESENTATION ( #329, #147 ) ;
#157 = ORIENTED_EDGE ( 'NONE', *, *, #302, .F. ) ;
#158 = MECHANICAL_CONTEXT ( 'NONE', #134, 'mechanical' ) ;
#159 = CALENDAR_DATE ( 2020, 22, 12 ) ;
#160 = ORIENTED_EDGE ( 'NONE', *, *, #15, .T. ) ;
#161 = APPROVAL_ROLE ( '' ) ;
#162 = VERTEX_POINT ( 'NONE', #256 ) ;
#163 = FACE_BOUND ( 'NONE', #8, .T. ) ;
#164 = VECTOR ( 'NONE', #99, 1000.000000000000000 ) ;
#165 = FACE_OUTER_BOUND ( 'NONE', #213, .T. ) ;
#166 = DIRECTION ( 'NONE',  ( -1.000000000000000000, 0.000000000000000000, -0.000000000000000000 ) ) ;
#167 = DIRECTION ( 'NONE',  ( -1.000000000000000000, -0.000000000000000000, -0.000000000000000000 ) ) ;
#168 = CLOSED_SHELL ( 'NONE', ( #41, #101, #277, #138, #148, #85, #119, #281, #103, #326 ) ) ;
#169 = APPROVAL_PERSON_ORGANIZATION ( #196, #79, #77 ) ;
#170 = DIRECTION ( 'NONE',  ( -1.000000000000000000, -0.000000000000000000, -0.000000000000000000 ) ) ;
#171 = EDGE_CURVE ( 'NONE', #187, #162, #177, .T. ) ;
#172 = CYLINDRICAL_SURFACE ( 'NONE', #88, 10.00000000000000000 ) ;
#173 = DIRECTION ( 'NONE',  ( 0.000000000000000000, 0.000000000000000000, 1.000000000000000000 ) ) ;
#174 = CIRCLE ( 'NONE', #279, 10.00000000000000000 ) ;
#175 = EDGE_CURVE ( 'NONE', #323, #187, #223, .T. ) ;
#176 = VECTOR ( 'NONE', #149, 1000.000000000000000 ) ;
#177 = LINE ( 'NONE', #48, #255 ) ;
#178 = DIRECTION ( 'NONE',  ( -1.000000000000000000, -0.000000000000000000, -0.000000000000000000 ) ) ;
#179 = DATE_TIME_ROLE ( 'creation_date' ) ;
#180 = ORIENTED_EDGE ( 'NONE', *, *, #58, .F. ) ;
#181 = DIRECTION ( 'NONE',  ( 0.000000000000000000, 0.000000000000000000, 1.000000000000000000 ) ) ;
#182 = DATE_AND_TIME ( #159, #18 ) ;
#183 = ORIENTED_EDGE ( 'NONE', *, *, #15, .F. ) ;
#184 = ORGANIZATION ( 'UNSPECIFIED', 'UNSPECIFIED', '' ) ;
#185 = CARTESIAN_POINT ( 'NONE',  ( -1.614212418857619014, 0.000000000000000000, 12.69999999999999929 ) ) ;
#186 = CALENDAR_DATE ( 2020, 22, 12 ) ;
#187 = VERTEX_POINT ( 'NONE', #46 ) ;
#188 = CARTESIAN_POINT ( 'NONE',  ( -3.000000000000000444, 0.000000000000000000, 0.000000000000000000 ) ) ;
#189 = EDGE_LOOP ( 'NONE', ( #239, #245, #81, #320 ) ) ;
#190 = PRODUCT_DEFINITION_FORMATION_WITH_SPECIFIED_SOURCE ( 'ANY', '', #250, .NOT_KNOWN. ) ;
#191 = DIRECTION ( 'NONE',  ( 1.000000000000000000, 0.000000000000000000, 0.000000000000000000 ) ) ;
#192 = DIRECTION ( 'NONE',  ( -1.000000000000000000, -0.000000000000000000, -0.000000000000000000 ) ) ;
#193 = ORIENTED_EDGE ( 'NONE', *, *, #36, .F. ) ;
#194 = CARTESIAN_POINT ( 'NONE',  ( -3.000000000000000000, 0.000000000000000000, 12.69999999999999929 ) ) ;
#195 = AXIS2_PLACEMENT_3D ( 'NONE', #135, #143, #197 ) ;
#196 = PERSON_AND_ORGANIZATION ( #13, #184 ) ;
#197 = DIRECTION ( 'NONE',  ( 0.000000000000000000, 0.000000000000000000, 1.000000000000000000 ) ) ;
#198 = APPROVAL ( #292, 'UNSPECIFIED' ) ;
#199 = CARTESIAN_POINT ( 'NONE',  ( -3.000000000000000000, 10.00000000000000000, 0.000000000000000000 ) ) ;
#200 = CIRCLE ( 'NONE', #145, 10.00000000000000000 ) ;
#201 = VECTOR ( 'NONE', #249, 1000.000000000000000 ) ;
#202 = CARTESIAN_POINT ( 'NONE',  ( -1.614212418857619014, 1.555301434917138433E-15, -12.69999999999999929 ) ) ;
#203 = CC_DESIGN_DATE_AND_TIME_ASSIGNMENT ( #310, #179, ( #140 ) ) ;
#204 = DIRECTION ( 'NONE',  ( -1.000000000000000000, -0.000000000000000000, -0.000000000000000000 ) ) ;
#205 = DIRECTION ( 'NONE',  ( -1.000000000000000000, -0.000000000000000000, -0.000000000000000000 ) ) ;
#206 = DIRECTION ( 'NONE',  ( 0.000000000000000000, 0.000000000000000000, -1.000000000000000000 ) ) ;
#207 =( GEOMETRIC_REPRESENTATION_CONTEXT ( 3 ) GLOBAL_UNCERTAINTY_ASSIGNED_CONTEXT ( ( #248 ) ) GLOBAL_UNIT_ASSIGNED_CONTEXT ( ( #285, #123, #234 ) ) REPRESENTATION_CONTEXT ( 'NONE', 'WORKASPACE' ) );
#208 = ORIENTED_EDGE ( 'NONE', *, *, #324, .T. ) ;
#209 = DATE_AND_TIME ( #220, #52 ) ;
#210 = EDGE_CURVE ( 'NONE', #100, #129, #24, .T. ) ;
#211 = CARTESIAN_POINT ( 'NONE',  ( -3.000000000000000444, 0.000000000000000000, 0.000000000000000000 ) ) ;
#212 = CALENDAR_DATE ( 2020, 22, 12 ) ;
#213 = EDGE_LOOP ( 'NONE', ( #97, #298, #208, #284 ) ) ;
#214 = CARTESIAN_POINT ( 'NONE',  ( -2.500000000000000444, 1.224646799147353256E-15, -10.00000000000000000 ) ) ;
#215 = ORIENTED_EDGE ( 'NONE', *, *, #210, .T. ) ;
#216 = AXIS2_PLACEMENT_3D ( 'NONE', #87, #274, #113 ) ;
#217 = DIRECTION ( 'NONE',  ( 0.000000000000000000, 0.000000000000000000, 1.000000000000000000 ) ) ;
#218 = VERTEX_POINT ( 'NONE', #333 ) ;
#219 = CARTESIAN_POINT ( 'NONE',  ( -1.614212418857619014, 0.000000000000000000, 0.000000000000000000 ) ) ;
#220 = CALENDAR_DATE ( 2020, 22, 12 ) ;
#221 = DIRECTION ( 'NONE',  ( -1.000000000000000000, -0.000000000000000000, -0.000000000000000000 ) ) ;
#222 = CC_DESIGN_PERSON_AND_ORGANIZATION_ASSIGNMENT ( #262, #240, ( #120 ) ) ;
#223 = CIRCLE ( 'NONE', #96, 10.00000000000000000 ) ;
#224 = CARTESIAN_POINT ( 'NONE',  ( -2.500000000000000444, 0.000000000000000000, 0.000000000000000000 ) ) ;
#225 = APPLICATION_CONTEXT ( 'configuration controlled 3d designs of mechanical parts and assemblies' ) ;
#226 = EDGE_LOOP ( 'NONE', ( #109, #246, #311, #266 ) ) ;
#227 = DIRECTION ( 'NONE',  ( 0.000000000000000000, 0.000000000000000000, 1.000000000000000000 ) ) ;
#228 = CIRCLE ( 'NONE', #334, 12.69999999999999929 ) ;
#229 = CARTESIAN_POINT ( 'NONE',  ( -1.614212418857619014, 0.000000000000000000, 0.000000000000000000 ) ) ;
#230 = DIRECTION ( 'NONE',  ( 0.000000000000000000, 0.000000000000000000, -1.000000000000000000 ) ) ;
#231 = VECTOR ( 'NONE', #121, 1000.000000000000000 ) ;
#232 = EDGE_CURVE ( 'NONE', #78, #129, #331, .T. ) ;
#233 = DIRECTION ( 'NONE',  ( 0.000000000000000000, 0.000000000000000000, 1.000000000000000000 ) ) ;
#234 =( NAMED_UNIT ( * ) SI_UNIT ( $, .STERADIAN. ) SOLID_ANGLE_UNIT ( ) );
#235 = AXIS2_PLACEMENT_3D ( 'NONE', #60, #265, #259 ) ;
#236 = ORIENTED_EDGE ( 'NONE', *, *, #89, .T. ) ;
#237 = EDGE_CURVE ( 'NONE', #127, #57, #92, .T. ) ;
#238 = CC_DESIGN_PERSON_AND_ORGANIZATION_ASSIGNMENT ( #9, #53, ( #190 ) ) ;
#239 = ORIENTED_EDGE ( 'NONE', *, *, #237, .F. ) ;
#240 = PERSON_AND_ORGANIZATION_ROLE ( 'classification_officer' ) ;
#241 = ORIENTED_EDGE ( 'NONE', *, *, #268, .T. ) ;
#242 = AXIS2_PLACEMENT_3D ( 'NONE', #144, #221, #247 ) ;
#243 = CYLINDRICAL_SURFACE ( 'NONE', #76, 12.69999999999999929 ) ;
#244 = COORDINATED_UNIVERSAL_TIME_OFFSET ( 8, 0, .AHEAD. ) ;
#245 = ORIENTED_EDGE ( 'NONE', *, *, #257, .T. ) ;
#246 = ORIENTED_EDGE ( 'NONE', *, *, #175, .T. ) ;
#247 = DIRECTION ( 'NONE',  ( 0.000000000000000000, 0.000000000000000000, 1.000000000000000000 ) ) ;
#248 = UNCERTAINTY_MEASURE_WITH_UNIT (LENGTH_MEASURE( 1.000000000000000082E-05 ), #285, 'distance_accuracy_value', 'NONE');
#249 = DIRECTION ( 'NONE',  ( -1.000000000000000000, -0.000000000000000000, -0.000000000000000000 ) ) ;
#250 = PRODUCT ( 'Q-AZHWP-20-800-M', 'Q-AZHWP-20-800-M', '', ( #158 ) ) ;
#251 = FACE_OUTER_BOUND ( 'NONE', #72, .T. ) ;
#252 = AXIS2_PLACEMENT_3D ( 'NONE', #229, #42, #227 ) ;
#253 = ORIENTED_EDGE ( 'NONE', *, *, #210, .F. ) ;
#254 = DIRECTION ( 'NONE',  ( -1.000000000000000000, -0.000000000000000000, -0.000000000000000000 ) ) ;
#255 = VECTOR ( 'NONE', #23, 1000.000000000000000 ) ;
#256 = CARTESIAN_POINT ( 'NONE',  ( -3.000000000000000444, 0.000000000000000000, 10.00000000000000000 ) ) ;
#257 = EDGE_CURVE ( 'NONE', #127, #218, #69, .T. ) ;
#258 = CARTESIAN_POINT ( 'NONE',  ( 2.500000000000000888, 1.224646799147353256E-15, -10.00000000000000000 ) ) ;
#259 = DIRECTION ( 'NONE',  ( 0.000000000000000000, 0.000000000000000000, -1.000000000000000000 ) ) ;
#260 = EDGE_CURVE ( 'NONE', #57, #5, #112, .T. ) ;
#261 = CC_DESIGN_APPROVAL ( #79, ( #140 ) ) ;
#262 = PERSON_AND_ORGANIZATION ( #13, #184 ) ;
#263 = ORIENTED_EDGE ( 'NONE', *, *, #232, .T. ) ;
#264 = PERSON_AND_ORGANIZATION_ROLE ( 'creator' ) ;
#265 = DIRECTION ( 'NONE',  ( 1.000000000000000000, 0.000000000000000000, 0.000000000000000000 ) ) ;
#266 = ORIENTED_EDGE ( 'NONE', *, *, #319, .T. ) ;
#267 = CIRCLE ( 'NONE', #307, 10.00000000000000000 ) ;
#268 = EDGE_CURVE ( 'NONE', #129, #78, #267, .T. ) ;
#269 = CARTESIAN_POINT ( 'NONE',  ( -1.614212418857619014, 0.000000000000000000, 0.000000000000000000 ) ) ;
#270 = PLANE ( 'NONE',  #299 ) ;
#271 = CC_DESIGN_APPROVAL ( #198, ( #190 ) ) ;
#272 = FACE_OUTER_BOUND ( 'NONE', #106, .T. ) ;
#273 = DIRECTION ( 'NONE',  ( -0.000000000000000000, 0.000000000000000000, 1.000000000000000000 ) ) ;
#274 = DIRECTION ( 'NONE',  ( -1.000000000000000000, -0.000000000000000000, -0.000000000000000000 ) ) ;
#275 = FACE_OUTER_BOUND ( 'NONE', #70, .T. ) ;
#276 = DIRECTION ( 'NONE',  ( -0.000000000000000000, 0.000000000000000000, 1.000000000000000000 ) ) ;
#277 = ADVANCED_FACE ( 'NONE', ( #67 ), #172, .F. ) ;
#278 = DIRECTION ( 'NONE',  ( 1.000000000000000000, 0.000000000000000000, 0.000000000000000000 ) ) ;
#279 = AXIS2_PLACEMENT_3D ( 'NONE', #211, #312, #321 ) ;
#280 = CARTESIAN_POINT ( 'NONE',  ( -1.614212418857619014, 1.224646799147353256E-15, -10.00000000000000000 ) ) ;
#281 = ADVANCED_FACE ( 'NONE', ( #73 ), #243, .T. ) ;
#282 = FACE_OUTER_BOUND ( 'NONE', #49, .T. ) ;
#283 = APPROVAL_DATE_TIME ( #209, #198 ) ;
#284 = ORIENTED_EDGE ( 'NONE', *, *, #171, .F. ) ;
#285 =( LENGTH_UNIT ( ) NAMED_UNIT ( * ) SI_UNIT ( .MILLI., .METRE. ) );
#286 = APPROVAL_DATE_TIME ( #182, #19 ) ;
#287 = ORIENTED_EDGE ( 'NONE', *, *, #257, .F. ) ;
#288 = DIRECTION ( 'NONE',  ( 1.000000000000000000, 0.000000000000000000, 0.000000000000000000 ) ) ;
#289 = APPROVAL_DATE_TIME ( #82, #79 ) ;
#290 = CC_DESIGN_PERSON_AND_ORGANIZATION_ASSIGNMENT ( #80, #141, ( #250 ) ) ;
#291 = DIRECTION ( 'NONE',  ( -1.000000000000000000, -0.000000000000000000, -0.000000000000000000 ) ) ;
#292 = APPROVAL_STATUS ( 'not_yet_approved' ) ;
#293 = VERTEX_POINT ( 'NONE', #33 ) ;
#294 = AXIS2_PLACEMENT_3D ( 'NONE', #118, #335, #150 ) ;
#295 = FACE_OUTER_BOUND ( 'NONE', #226, .T. ) ;
#296 = CC_DESIGN_PERSON_AND_ORGANIZATION_ASSIGNMENT ( #132, #264, ( #140 ) ) ;
#297 = CYLINDRICAL_SURFACE ( 'NONE', #242, 10.00000000000000000 ) ;
#298 = ORIENTED_EDGE ( 'NONE', *, *, #44, .T. ) ;
#299 = AXIS2_PLACEMENT_3D ( 'NONE', #65, #166, #273 ) ;
#300 = LINE ( 'NONE', #110, #136 ) ;
#301 = FACE_OUTER_BOUND ( 'NONE', #75, .T. ) ;
#302 = EDGE_CURVE ( 'NONE', #218, #5, #125, .T. ) ;
#303 = LOCAL_TIME ( 17, 8, 57.00000000000000000, #31 ) ;
#304 = CARTESIAN_POINT ( 'NONE',  ( 2.500000000000000888, 0.000000000000000000, 0.000000000000000000 ) ) ;
#305 = DIRECTION ( 'NONE',  ( 0.000000000000000000, 0.000000000000000000, 1.000000000000000000 ) ) ;
#306 = DIRECTION ( 'NONE',  ( 0.000000000000000000, 0.000000000000000000, 1.000000000000000000 ) ) ;
#307 = AXIS2_PLACEMENT_3D ( 'NONE', #47, #204, #305 ) ;
#308 = CARTESIAN_POINT ( 'NONE',  ( 2.500000000000000444, 10.00000000000000000, 0.000000000000000000 ) ) ;
#309 = ORIENTED_EDGE ( 'NONE', *, *, #319, .F. ) ;
#310 = DATE_AND_TIME ( #212, #303 ) ;
#311 = ORIENTED_EDGE ( 'NONE', *, *, #171, .T. ) ;
#312 = DIRECTION ( 'NONE',  ( -1.000000000000000000, -0.000000000000000000, -0.000000000000000000 ) ) ;
#313 = DATE_TIME_ROLE ( 'classification_date' ) ;
#314 = ORIENTED_EDGE ( 'NONE', *, *, #36, .T. ) ;
#315 = LOCAL_TIME ( 17, 8, 57.00000000000000000, #7 ) ;
#316 = ORIENTED_EDGE ( 'NONE', *, *, #114, .F. ) ;
#317 = CC_DESIGN_PERSON_AND_ORGANIZATION_ASSIGNMENT ( #71, #153, ( #190 ) ) ;
#318 = ORIENTED_EDGE ( 'NONE', *, *, #58, .T. ) ;
#319 = EDGE_CURVE ( 'NONE', #162, #34, #174, .T. ) ;
#320 = ORIENTED_EDGE ( 'NONE', *, *, #260, .F. ) ;
#321 = DIRECTION ( 'NONE',  ( 0.000000000000000000, 0.000000000000000000, 1.000000000000000000 ) ) ;
#322 = APPROVAL_ROLE ( '' ) ;
#323 = VERTEX_POINT ( 'NONE', #214 ) ;
#324 = EDGE_CURVE ( 'NONE', #34, #162, #131, .T. ) ;
#325 = AXIS2_PLACEMENT_3D ( 'NONE', #122, #68, #173 ) ;
#326 = ADVANCED_FACE ( 'NONE', ( #282 ), #56, .F. ) ;
#327 = ORIENTED_EDGE ( 'NONE', *, *, #89, .F. ) ;
#328 = PRODUCT_RELATED_PRODUCT_CATEGORY ( 'detail', '', ( #250 ) ) ;
#329 = PRODUCT_DEFINITION_SHAPE ( 'NONE', 'NONE',  #140 ) ;
#330 = CARTESIAN_POINT ( 'NONE',  ( -1.614212418857619014, 1.224646799147353256E-15, -10.00000000000000000 ) ) ;
#331 = CIRCLE ( 'NONE', #64, 10.00000000000000000 ) ;
#332 = LINE ( 'NONE', #330, #201 ) ;
#333 = CARTESIAN_POINT ( 'NONE',  ( 3.000000000000000000, 0.000000000000000000, 12.69999999999999929 ) ) ;
#334 = AXIS2_PLACEMENT_3D ( 'NONE', #37, #62, #38 ) ;
#335 = DIRECTION ( 'NONE',  ( -1.000000000000000000, -0.000000000000000000, -0.000000000000000000 ) ) ;
ENDSEC;
END-ISO-10303-21;
